Это все (с аккордами)... - "ДДТ"
Д - ДДТ

Текст песни - "Это все (с аккордами)"

Исполнитель: "ДДТ"

intro
|-3-------3-------2-------2-------0-------0---------0-----2-|
|-3-3-----3-3-----3-3---3-3-3---3-1-1-----1-1-----1---1---3-|
|-0---0---0---0---2---2---2---2---0---0---0---0---2-----2-2-|
|-0-----0-0-----0-0-------0-------2-----2-2-----2-2-------0-|
|-2-------2-----------------------3-------3-------0---------|
|-3-------3-------------------------------------------------|

G(s)-перебор D(s)-перебор Em(s)-перебор C(s)-перебор D(s1)-перебор
|---------| |---------| |---------| |---------| |-------2h3h2-|
|---------| |---------| |---------| |---------| |-----3-------|
|-----0---| |-----2---| |-----0---| |-----0---| |---2---------|
|---0---0-| |---0---0-| |---2---2-| |---2---2-| |-0-----------|
|---------| |-0-------| |---------| |-3-------| |-------------|
|-3-------| |---------| |-0-------| |---------| |-------------|

G(s) D(s)
Побледневшие листья окна зарастают прозрачной водой.
Em(s) C(s) D(s1)
У воды нет ни смерти, ни дна. Я прощаюсь с тобой.
Горсть тепла после долгой зимы - донесем.
Пять минут до утра - доживем.
Наше море вины поглощает время-дыра

Пр.
G D Em C D
Это все, что останется после меня,
G D C D
Это все, что возьму я с собой.


Собрание караоке на одном сайте. Отечественные композиции для твоей компании. Тексты караоке отечественные проверенные. Надеемся, ты хорошо отдохнете и просто гости и друзья . На сайте Всекараоке клаб вы прочитаете, еще и шокирующие вещи из мира эстрады. Звезды нашей и западной поп-музыки, истории жизни, фотографии. Желаем удачи!
Рекомендуем прочитать: